  0
SECTION
  2
HEADER
  9
$ACADVER
  1
AC1014
  9
$HANDSEED
  5
FFFF
  9
$MEASUREMENT
 70
     1
  0
ENDSEC
  0
SECTION
  2
TABLES
  0
TABLE
  2
VPORT
  5
8
330
0
100
AcDbSymbolTable
 70
     4
  0
VPORT
  5
2E
330
8
100
AcDbSymbolTableRecord
100
AcDbViewportTableRecord
  2
*ACTIVE
 70
     0
 10
0.0
 20
0.0
 11
1.0
 21
1.0
 12
210.0
 22
148.5
 13
0.0
 23
0.0
 14
10.0
 24
10.0
 15
10.0
 25
10.0
 16
0.0
 26
0.0
 36
1.0
 17
0.0
 27
0.0
 37
0.0
 40
341.0
 41
1.24
 42
50.0
 43
0.0
 44
0.0
 50
0.0
 51
0.0
 71
     0
 72
   100
 73
     1
 74
     3
 75
     0
 76
     0
 77
     0
 78
     0
  0
ENDTAB
  0
TABLE
  2
LTYPE
  5
5
330
0
100
AcDbSymbolTable
 70
     1
  0
LTYPE
  5
14
330
5
100
AcDbSymbolTableRecord
100
AcDbLinetypeTableRecord
  2
BYBLOCK
 70
     0
  3

 72
    65
 73
     0
 40
0.0
  0
LTYPE
  5
15
330
5
100
AcDbSymbolTableRecord
100
AcDbLinetypeTableRecord
  2
BYLAYER
 70
     0
  3

 72
    65
 73
     0
 40
0.0
  0
LTYPE
  5
16
330
5
100
AcDbSymbolTableRecord
100
AcDbLinetypeTableRecord
  2
CONTINUOUS
 70
     0
  3
Solid line
 72
    65
 73
     0
 40
0.0
  0
ENDTAB
  0
TABLE
  2
LAYER
  5
2
100
AcDbSymbolTable
 70
2
  0
LAYER
  5
50
100
AcDbSymbolTableRecord
100
AcDbLayerTableRecord
  2
0
 70
0
  6
CONTINUOUS
  0
LAYER
  5
51
100
AcDbSymbolTableRecord
100
AcDbLayerTableRecord
  2
cut
 70
0
  6
CONTINUOUS
  0
ENDTAB
  0
TABLE
  2
STYLE
  5
3
330
0
100
AcDbSymbolTable
 70
     1
  0
STYLE
  5
11
330
3
100
AcDbSymbolTableRecord
100
AcDbTextStyleTableRecord
  2
STANDARD
 70
     0
 40
0.0
 41
1.0
 50
0.0
 71
     0
 42
2.5
  3
txt
  4

  0
ENDTAB
  0
TABLE
  2
VIEW
  5
6
330
0
100
AcDbSymbolTable
 70
     0
  0
ENDTAB
  0
TABLE
  2
UCS
  5
7
330
0
100
AcDbSymbolTable
 70
     0
  0
ENDTAB
  0
TABLE
  2
APPID
  5
9
330
0
100
AcDbSymbolTable
 70
     2
  0
APPID
  5
12
330
9
100
AcDbSymbolTableRecord
100
AcDbRegAppTableRecord
  2
ACAD
 70
     0
  0
ENDTAB
  0
TABLE
  2
DIMSTYLE
  5
A
330
0
100
AcDbSymbolTable
 70
     1
  0
DIMSTYLE
105
27
330
A
100
AcDbSymbolTableRecord
100
AcDbDimStyleTableRecord
  2
ISO-25
 70
     0
  3

  4

  5

  6

  7

 40
1.0
 41
2.5
 42
0.625
 43
3.75
 44
1.25
 45
0.0
 46
0.0
 47
0.0
 48
0.0
140
2.5
141
2.5
142
0.0
143
0.03937007874016
144
1.0
145
0.0
146
1.0
147
0.625
 71
     0
 72
     0
 73
     0
 74
     0
 75
     0
 76
     0
 77
     1
 78
     8
170
     0
171
     3
172
     1
173
     0
174
     0
175
     0
176
     0
177
     0
178
     0
270
     2
271
     2
272
     2
273
     2
274
     3
340
11
275
     0
280
     0
281
     0
282
     0
283
     0
284
     8
285
     0
286
     0
287
     3
288
     0
  0
ENDTAB
  0
TABLE
  2
BLOCK_RECORD
  5
1
330
0
100
AcDbSymbolTable
 70
     1
  0
BLOCK_RECORD
  5
1F
330
1
100
AcDbSymbolTableRecord
100
AcDbBlockTableRecord
  2
*MODEL_SPACE
  0
BLOCK_RECORD
  5
1B
330
1
100
AcDbSymbolTableRecord
100
AcDbBlockTableRecord
  2
*PAPER_SPACE
  0
ENDTAB
  0
ENDSEC
  0
SECTION
  2
BLOCKS
  0
BLOCK
  5
20
330
1F
100
AcDbEntity
  8
0
100
AcDbBlockBegin
  2
*MODEL_SPACE
 70
     0
 10
0.0
 20
0.0
 30
0.0
  3
*MODEL_SPACE
  1

  0
ENDBLK
  5
21
330
1F
100
AcDbEntity
  8
0
100
AcDbBlockEnd
  0
BLOCK
  5
1C
330
1B
100
AcDbEntity
 67
     1
  8
0
100
AcDbBlockBegin
  2
*PAPER_SPACE
  1

  0
ENDBLK
  5
1D
330
1B
100
AcDbEntity
 67
     1
  8
0
100
AcDbBlockEnd
  0
ENDSEC
  0
SECTION
  2
ENTITIES
  0
SPLINE
  5
100
100
AcDbEntity
  8
cut
 62
7
100
AcDbSpline
 70
0
 71
3
 72
10
 73
6
 74
4
 40
0.000000
 40
0.000000
 40
0.000000
 40
0.000000
 40
8.282105
 40
16.382526
 40
24.657589
 40
24.657589
 40
24.657589
 40
24.657589
 10
299.386308
 20
166.421490
 30
0.0
 10
298.665173
 20
169.119562
 30
0.0
 10
297.238722
 20
174.456519
 30
0.0
 10
291.076677
 20
180.627362
 30
0.0
 10
285.742561
 20
182.056682
 30
0.0
 10
283.047059
 20
182.778963
 30
0.0
 11
299.386308
 21
166.421490
 31
0.0
 11
296.541124
 21
174.199548
 31
0.0
 11
290.816456
 21
179.930603
 31
0.0
 11
283.047059
 21
182.778963
 31
0.0
  0
LWPOLYLINE
  5
101
100
AcDbEntity
  8
cut
 62
7
100
AcDbPolyline
 90
2
 70
0
 10
298.492333
 20
162.411833
 30
0.0
 10
291.486167
 20
162.411833
 30
0.0
  0
LWPOLYLINE
  5
102
100
AcDbEntity
  8
cut
 62
7
100
AcDbPolyline
 90
2
 70
0
 10
298.492333
 20
162.411833
 30
0.0
 10
299.381333
 20
161.417000
 30
0.0
  0
SPLINE
  5
103
100
AcDbEntity
  8
cut
 62
7
100
AcDbSpline
 70
0
 71
3
 72
10
 73
6
 74
4
 40
0.000000
 40
0.000000
 40
0.000000
 40
0.000000
 40
8.275064
 40
16.375485
 40
24.657589
 40
24.657589
 40
24.657589
 40
24.657589
 10
283.047059
 20
145.071537
 30
0.0
 10
285.742561
 20
145.793818
 30
0.0
 10
291.076677
 20
147.223138
 30
0.0
 10
297.238722
 20
153.393981
 30
0.0
 10
298.665173
 20
158.730938
 30
0.0
 10
299.386308
 20
161.429010
 30
0.0
 11
283.047059
 21
145.071537
 31
0.0
 11
290.816456
 21
147.919897
 31
0.0
 11
296.541124
 21
153.650952
 31
0.0
 11
299.386308
 21
161.429010
 31
0.0
  0
LWPOLYLINE
  5
104
100
AcDbEntity
  8
cut
 62
7
100
AcDbPolyline
 90
6
 70
0
 10
283.040667
 20
145.055167
 30
0.0
 10
282.045833
 20
145.944167
 30
0.0
 10
282.045833
 20
152.950333
 30
0.0
 10
279.040167
 20
152.950333
 30
0.0
 10
279.040167
 20
145.944167
 30
0.0
 10
278.045333
 20
145.055167
 30
0.0
  0
SPLINE
  5
105
100
AcDbEntity
  8
cut
 62
7
100
AcDbSpline
 70
0
 71
3
 72
10
 73
6
 74
4
 40
0.000000
 40
0.000000
 40
0.000000
 40
0.000000
 40
8.282105
 40
16.382526
 40
24.657589
 40
24.657589
 40
24.657589
 40
24.657589
 10
261.720859
 20
161.429010
 30
0.0
 10
262.441994
 20
158.730938
 30
0.0
 10
263.868444
 20
153.393981
 30
0.0
 10
270.030490
 20
147.223138
 30
0.0
 10
275.364606
 20
145.793818
 30
0.0
 10
278.060108
 20
145.071537
 30
0.0
 11
261.720859
 21
161.429010
 31
0.0
 11
264.566043
 21
153.650952
 31
0.0
 11
270.290711
 21
147.919897
 31
0.0
 11
278.060108
 21
145.071537
 31
0.0
  0
LWPOLYLINE
  5
106
100
AcDbEntity
  8
cut
 62
7
100
AcDbPolyline
 90
4
 70
0
 10
261.704667
 20
161.417000
 30
0.0
 10
262.593667
 20
162.411833
 30
0.0
 10
269.599833
 20
162.411833
 30
0.0
 10
269.599833
 20
165.396333
 30
0.0
  0
SPLINE
  5
107
100
AcDbEntity
  8
cut
 62
7
100
AcDbSpline
 70
0
 71
3
 72
10
 73
6
 74
4
 40
0.000000
 40
0.000000
 40
0.000000
 40
0.000000
 40
8.275064
 40
16.375485
 40
24.657589
 40
24.657589
 40
24.657589
 40
24.657589
 10
278.060108
 20
182.778963
 30
0.0
 10
275.364606
 20
182.056682
 30
0.0
 10
270.030490
 20
180.627362
 30
0.0
 10
263.868444
 20
174.456519
 30
0.0
 10
262.441994
 20
169.119562
 30
0.0
 10
261.720859
 20
166.421490
 30
0.0
 11
278.060108
 21
182.778963
 31
0.0
 11
270.290711
 21
179.930603
 31
0.0
 11
264.566043
 21
174.199548
 31
0.0
 11
261.720859
 21
166.421490
 31
0.0
  0
LWPOLYLINE
  5
108
100
AcDbEntity
  8
cut
 62
7
100
AcDbPolyline
 90
2
 70
0
 10
262.593667
 20
165.396333
 30
0.0
 10
269.599833
 20
165.396333
 30
0.0
  0
LWPOLYLINE
  5
109
100
AcDbEntity
  8
cut
 62
7
100
AcDbPolyline
 90
2
 70
0
 10
262.593667
 20
165.396333
 30
0.0
 10
261.704667
 20
166.391167
 30
0.0
  0
LWPOLYLINE
  5
10a
100
AcDbEntity
  8
cut
 62
7
100
AcDbPolyline
 90
3
 70
0
 10
279.040167
 20
174.857833
 30
0.0
 10
279.040167
 20
181.864000
 30
0.0
 10
278.045333
 20
182.753000
 30
0.0
  0
LWPOLYLINE
  5
10b
100
AcDbEntity
  8
cut
 62
7
100
AcDbPolyline
 90
4
 70
0
 10
246.803333
 20
146.325167
 30
0.0
 10
247.205500
 20
147.595167
 30
0.0
 10
243.713000
 20
153.670000
 30
0.0
 10
246.316500
 20
155.172833
 30
0.0
  0
SPLINE
  5
10c
100
AcDbEntity
  8
cut
 62
7
100
AcDbSpline
 70
0
 71
3
 72
13
 73
9
 74
7
 40
0.000000
 40
0.000000
 40
0.000000
 40
0.000000
 40
5.802522
 40
11.539150
 40
17.338255
 40
23.135689
 40
28.867929
 40
34.664866
 40
34.664866
 40
34.664866
 40
34.664866
 10
220.721026
 20
161.429010
 30
0.0
 10
221.146860
 20
159.526593
 30
0.0
 10
221.993692
 20
155.743364
 30
0.0
 10
225.351794
 20
150.878481
 30
0.0
 10
229.900955
 20
147.189859
 30
0.0
 10
235.366439
 20
145.089321
 30
0.0
 10
241.254785
 20
144.609732
 30
0.0
 10
244.951446
 20
145.767148
 30
0.0
 10
246.810149
 20
146.349104
 30
0.0
 11
220.721026
 21
161.429010
 31
0.0
 11
222.349525
 21
155.859696
 31
0.0
 11
225.535886
 21
151.089371
 31
0.0
 11
230.054933
 21
147.455113
 31
0.0
 11
235.458260
 21
145.354090
 31
0.0
 11
241.178053
 21
144.976526
 31
0.0
 11
246.810149
 21
146.349104
 31
0.0
  0
LWPOLYLINE
  5
10d
100
AcDbEntity
  8
cut
 62
7
100
AcDbPolyline
 90
6
 70
0
 10
220.704833
 20
161.417000
 30
0.0
 10
221.593833
 20
162.411833
 30
0.0
 10
228.600000
 20
162.411833
 30
0.0
 10
228.600000
 20
165.396333
 30
0.0
 10
221.593833
 20
165.396333
 30
0.0
 10
220.704833
 20
166.391167
 30
0.0
  0
LWPOLYLINE
  5
10e
100
AcDbEntity
  8
cut
 62
7
100
AcDbPolyline
 90
3
 70
0
 10
246.316500
 20
155.172833
 30
0.0
 10
249.809000
 20
149.098000
 30
0.0
 10
251.121333
 20
148.822833
 30
0.0
  0
SPLINE
  5
10f
100
AcDbEntity
  8
cut
 62
7
100
AcDbSpline
 70
0
 71
3
 72
13
 73
9
 74
7
 40
0.000000
 40
0.000000
 40
0.000000
 40
0.000000
 40
5.799656
 40
11.536715
 40
17.339295
 40
23.141876
 40
28.878935
 40
34.678591
 40
34.678591
 40
34.678591
 40
34.678591
 10
251.130477
 20
148.846316
 30
0.0
 10
252.563224
 20
150.166954
 30
0.0
 10
255.413254
 20
152.793976
 30
0.0
 10
257.941540
 20
158.137804
 30
0.0
 10
258.857210
 20
163.925250
 30
0.0
 10
257.941540
 20
169.712696
 30
0.0
 10
255.413254
 20
175.056524
 30
0.0
 10
252.563224
 20
177.683546
 30
0.0
 10
251.130477
 20
179.004184
 30
0.0
 11
251.130477
 21
148.846316
 31
0.0
 11
255.133583
 21
153.042880
 31
0.0
 11
257.666692
 21
158.190424
 31
0.0
 11
258.550833
 21
163.925250
 31
0.0
 11
257.666692
 21
169.660076
 31
0.0
 11
255.133583
 21
174.807620
 31
0.0
 11
251.130477
 21
179.004184
 31
0.0
  0
LWPOLYLINE
  5
110
100
AcDbEntity
  8
cut
 62
7
100
AcDbPolyline
 90
4
 70
0
 10
249.809000
 20
178.710167
 30
0.0
 10
246.316500
 20
172.635333
 30
0.0
 10
243.713000
 20
174.138167
 30
0.0
 10
247.205500
 20
180.213000
 30
0.0
  0
LWPOLYLINE
  5
111
100
AcDbEntity
  8
cut
 62
7
100
AcDbPolyline
 90
2
 70
0
 10
249.809000
 20
178.710167
 30
0.0
 10
251.121333
 20
178.985333
 30
0.0
  0
LWPOLYLINE
  5
112
100
AcDbEntity
  8
cut
 62
7
100
AcDbPolyline
 90
2
 70
0
 10
246.803333
 20
181.483000
 30
0.0
 10
247.205500
 20
180.213000
 30
0.0
  0
SPLINE
  5
113
100
AcDbEntity
  8
cut
 62
7
100
AcDbSpline
 70
0
 71
3
 72
13
 73
9
 74
7
 40
0.000000
 40
0.000000
 40
0.000000
 40
0.000000
 40
5.796937
 40
11.529178
 40
17.326614
 40
23.125711
 40
28.862339
 40
34.664863
 40
34.664863
 40
34.664863
 40
34.664863
 10
246.810149
 20
181.501396
 30
0.0
 10
244.951446
 20
182.083351
 30
0.0
 10
241.254785
 20
183.240767
 30
0.0
 10
235.366437
 20
182.761176
 30
0.0
 10
229.900961
 20
180.660627
 30
0.0
 10
225.351790
 20
176.972022
 30
0.0
 10
221.993692
 20
172.107136
 30
0.0
 10
221.146860
 20
168.323907
 30
0.0
 10
220.721026
 20
166.421490
 30
0.0
 11
246.810149
 21
181.501396
 31
0.0
 11
241.178053
 21
182.873973
 31
0.0
 11
235.458260
 21
182.496406
 31
0.0
 11
230.054933
 21
180.395376
 31
0.0
 11
225.535886
 21
176.761130
 31
0.0
 11
222.349525
 21
171.990806
 31
0.0
 11
220.721026
 21
166.421490
 31
0.0
  0
LWPOLYLINE
  5
114
100
AcDbEntity
  8
cut
 62
7
100
AcDbPolyline
 90
3
 70
0
 10
216.492667
 20
162.411833
 30
0.0
 10
209.486500
 20
162.411833
 30
0.0
 10
209.486500
 20
165.396333
 30
0.0
  0
LWPOLYLINE
  5
115
100
AcDbEntity
  8
cut
 62
7
100
AcDbPolyline
 90
2
 70
0
 10
216.492667
 20
162.411833
 30
0.0
 10
217.381667
 20
161.417000
 30
0.0
  0
SPLINE
  5
116
100
AcDbEntity
  8
cut
 62
7
100
AcDbSpline
 70
0
 71
3
 72
13
 73
9
 74
7
 40
0.000000
 40
0.000000
 40
0.000000
 40
0.000000
 40
9.112895
 40
17.989047
 40
27.093736
 40
36.198423
 40
45.074573
 40
54.187467
 40
54.187467
 40
54.187467
 40
54.187467
 10
179.721186
 20
161.429010
 30
0.0
 10
180.555214
 20
158.445639
 30
0.0
 10
182.201602
 20
152.556403
 30
0.0
 10
189.487730
 20
146.409197
 30
0.0
 10
198.553916
 20
144.146355
 30
0.0
 10
207.620102
 20
146.409197
 30
0.0
 10
214.906227
 20
152.556404
 30
0.0
 10
216.552614
 20
158.445640
 30
0.0
 10
217.386641
 20
161.429010
 30
0.0
 11
179.721186
 21
161.429010
 31
0.0
 11
183.042226
 21
152.942813
 31
0.0
 11
189.714591
 21
147.089127
 31
0.0
 11
198.553917
 21
144.907000
 31
0.0
 11
207.393241
 21
147.089127
 31
0.0
 11
214.065602
 21
152.942813
 31
0.0
 11
217.386641
 21
161.429010
 31
0.0
  0
LWPOLYLINE
  5
117
100
AcDbEntity
  8
cut
 62
7
100
AcDbPolyline
 90
6
 70
0
 10
179.705000
 20
161.417000
 30
0.0
 10
180.594000
 20
162.411833
 30
0.0
 10
187.600167
 20
162.411833
 30
0.0
 10
187.600167
 20
165.396333
 30
0.0
 10
180.594000
 20
165.396333
 30
0.0
 10
179.705000
 20
166.391167
 30
0.0
  0
LWPOLYLINE
  5
118
100
AcDbEntity
  8
cut
 62
7
100
AcDbPolyline
 90
3
 70
0
 10
209.486500
 20
165.396333
 30
0.0
 10
216.492667
 20
165.396333
 30
0.0
 10
217.381667
 20
166.391167
 30
0.0
  0
SPLINE
  5
119
100
AcDbEntity
  8
cut
 62
7
100
AcDbSpline
 70
0
 71
3
 72
13
 73
9
 74
7
 40
0.000000
 40
0.000000
 40
0.000000
 40
0.000000
 40
9.112894
 40
17.989044
 40
27.093731
 40
36.198420
 40
45.074573
 40
54.187467
 40
54.187467
 40
54.187467
 40
54.187467
 10
217.386641
 20
166.421490
 30
0.0
 10
216.552614
 20
169.404860
 30
0.0
 10
214.906227
 20
175.294096
 30
0.0
 10
207.620102
 20
181.441303
 30
0.0
 10
198.553916
 20
183.704145
 30
0.0
 10
189.487730
 20
181.441303
 30
0.0
 10
182.201602
 20
175.294097
 30
0.0
 10
180.555214
 20
169.404861
 30
0.0
 10
179.721186
 20
166.421490
 30
0.0
 11
217.386641
 21
166.421490
 31
0.0
 11
214.065602
 21
174.907687
 31
0.0
 11
207.393241
 21
180.761373
 31
0.0
 11
198.553917
 21
182.943500
 31
0.0
 11
189.714591
 21
180.761373
 31
0.0
 11
183.042226
 21
174.907687
 31
0.0
 11
179.721186
 21
166.421490
 31
0.0
  0
LWPOLYLINE
  5
11a
100
AcDbEntity
  8
cut
 62
7
100
AcDbPolyline
 90
3
 70
0
 10
139.594167
 20
165.396333
 30
0.0
 10
146.600333
 20
165.396333
 30
0.0
 10
146.600333
 20
162.411833
 30
0.0
  0
LWPOLYLINE
  5
11b
100
AcDbEntity
  8
cut
 62
7
100
AcDbPolyline
 90
2
 70
0
 10
139.594167
 20
165.396333
 30
0.0
 10
138.705167
 20
166.391167
 30
0.0
  0
LWPOLYLINE
  5
11c
100
AcDbEntity
  8
cut
 62
7
100
AcDbPolyline
 90
3
 70
0
 10
146.600333
 20
162.411833
 30
0.0
 10
139.594167
 20
162.411833
 30
0.0
 10
138.705167
 20
161.417000
 30
0.0
  0
LWPOLYLINE
  5
11d
100
AcDbEntity
  8
cut
 62
7
100
AcDbPolyline
 90
4
 70
0
 10
291.486167
 20
162.411833
 30
0.0
 10
291.486167
 20
165.396333
 30
0.0
 10
298.492333
 20
165.396333
 30
0.0
 10
299.381333
 20
166.391167
 30
0.0
  0
SPLINE
  5
11e
100
AcDbEntity
  8
cut
 62
7
100
AcDbSpline
 70
0
 71
3
 72
19
 73
15
 74
13
 40
0.000000
 40
0.000000
 40
0.000000
 40
0.000000
 40
9.527763
 40
18.788146
 40
28.307165
 40
37.826859
 40
47.088597
 40
56.617192
 40
66.145791
 40
75.407527
 40
84.927221
 40
94.446239
 40
103.706620
 40
113.234388
 40
113.234388
 40
113.234388
 40
113.234388
 10
138.721351
 20
161.429010
 30
0.0
 10
139.615551
 20
158.309969
 30
0.0
 10
141.378857
 20
152.159417
 30
0.0
 10
149.242285
 20
145.962682
 30
0.0
 10
158.842658
 20
144.117581
 30
0.0
 10
168.212103
 20
147.211091
 30
0.0
 10
174.915651
 20
154.386197
 30
0.0
 10
177.380538
 20
163.925251
 30
0.0
 10
174.915653
 20
173.464306
 30
0.0
 10
168.212103
 20
180.639412
 30
0.0
 10
158.842658
 20
183.732918
 30
0.0
 10
149.242286
 20
181.887821
 30
0.0
 10
141.378855
 20
175.691087
 30
0.0
 10
139.615550
 20
169.540533
 30
0.0
 10
138.721351
 20
166.421490
 30
0.0
 11
138.721351
 21
161.429010
 31
0.0
 11
142.292677
 21
152.595896
 31
0.0
 11
149.451079
 21
146.721207
 31
0.0
 11
158.803516
 21
144.948176
 31
0.0
 11
167.842584
 21
147.934786
 31
0.0
 11
174.168836
 21
154.699275
 31
0.0
 11
176.551167
 21
163.925250
 31
0.0
 11
174.168836
 21
173.151230
 31
0.0
 11
167.842584
 21
179.915716
 31
0.0
 11
158.803516
 21
182.902324
 31
0.0
 11
149.451079
 21
181.129295
 31
0.0
 11
142.292677
 21
175.254609
 31
0.0
 11
138.721351
 21
166.421490
 31
0.0
  0
LWPOLYLINE
  5
11f
100
AcDbEntity
  8
cut
 62
7
100
AcDbPolyline
 90
4
 70
0
 10
279.040167
 20
174.857833
 30
0.0
 10
282.045833
 20
174.857833
 30
0.0
 10
282.045833
 20
181.864000
 30
0.0
 10
283.040667
 20
182.753000
 30
0.0
  0
ENDSEC
  0
SECTION
  2
OBJECTS
  0
DICTIONARY
  5
C
330
0
100
AcDbDictionary
  3
ACAD_GROUP
350
D
  3
ACAD_MLINESTYLE
350
17
  0
DICTIONARY
  5
D
330
C
100
AcDbDictionary
  0
DICTIONARY
  5
1A
330
C
100
AcDbDictionary
  0
DICTIONARY
  5
17
330
C
100
AcDbDictionary
  3
STANDARD
350
18
  0
DICTIONARY
  5
19
330
C
100
AcDbDictionary
  0
ENDSEC
  0
EOF
